HOME Bookmark and Share
The Tab World -  The Ultimate Music Resource Search For Find
Browse SectionMembers PanelClose

Johhny B Goode tab by Chuck Berry


Chuck Berry
concert tickets

Johhny B Goode tab by Chuck Berry

View other versions Johhny B Goode tab: [1]
Chord generator
Printable version
Official notes & sheet music
Comments [ 0 ]
Add comment
[ click to rate ]
 

Johhny B Goode tab was submitted by snagman on January 29, 2005

Intro

E]-------------5/6-6-6-5/6-6-6-5-6-6-6-------------------------------]
B]-------6--8--5/6-6-6-5/6-6-6-5-6-6-6-9-8-6-------------------------]
G]--5/7--------------------------------------6-5-7-------------6h7---]
D]-----------------------------------------------8-8-8-8-8-8-8---8---]
A]-----------------------------------------------8-8-8-8-8-8-8---8---]
E]-------------------------------------------------------------------]

E]----------------------------------------]
B]---6--6--8--6---------------------------]
G]-6/7--7--7--7--7\5--------x-------------]
D]--------------------8--5----------------]
A]----------------------------------------]
E]----------------------------------------]

E]-------------------6---------6---------6---------6-----------------------------6---------6--------6-]
B]---------6---------6---------6---------6---------6---------6---------6---------6---------6--------6-]
G]-8b(10)----8b(10)----8b(10)----8b(10)----8b(10)----8b(10)----8b(10)----8b(10)----8b(10)----8b(10)---]
D]----------------------------------------------------------------------------------------------------]
A]----------------------------------------------------------------------------------------------------]
E]----------------------------------------------------------------------------------------------------]

E]---------6-------8-6-----6------------6-------6---------6---------6--------------------------]
B]-----------9-8-6-----9-8-6----------6----9p8--6---------6---------6--8----6------------------]
G]-8b(10)--------------------8--6h7-6-------------8b(10)----8b(10)--------6h7------------------]
D]-----------------------------------------------------------------------------------------0---]
A]-----------------------------------------------------------------------------10-8-8-8-10-8---]
E]------------------------------------------------------------------------------6-6-6-6--6-6---]

Verse
E]----------------------------------------------------------------------------------------------------]
B]----------------------------------------------------------------------------------------------------]
G]----------------------------------------------------------------------------------------------------]
D]-------------------------------------------------------------------------0-8-8-10-8-8-8-10-8-8-8-10-]
A]-8-8-10-8-8-8-10-8-8-8-10-8-8-8-10-8-8-8-10-8-11-8-10-8-11-8-10-8-8-8-10-0-6-6--6-6-6-6--6-6-6-6--6-]
E]-6-6--6-6-6-6--6-6-6-6--6-6-6-6--6-6-6-6--6-6--6-6--6-6--6-6--6-6-6-6--6----------------------------]

E]--------------------------------------------------------------------------------------------------]
B]--------------------------------------------------------------------------------------------------]
G]----------0---------------------------------------------------------------------------------------]
D]-8-8-8-10-0-----------------------------------0-10-10-12-10-10-10-12-10-10-10-12-10-10-10-12-8----]
A]-6-6-6--6---8-8-10-8-8-8-10-8-8-8-10-8-8-8-10-0--8--8--8--8--8--8--8--8--8--8--8--8--8--8--8-8----]
E]------------6-6--6-6-6-6--6-6-6-6--6-6-6-6--6-----------------------------------------------------]

E]--------------------------------------]
B]--------------------------------------]
G]--------------------------------------]
D]--------------------------------------]
A]-8-8-10-8-8-8-10-8-8-8-10-8-8-8-10-8--]
E]-6-6--6-6-6-6--6-6-6-6--6-6-6-6--6-6--]


Chorus 1.       X4         2.
E]----------------------I----------------------------]
B]-/-9--9---9--9---9\---I--/-9--9---9--9---9\---8----]
G]-/10-10--10-10--10\---I--/10-10--10-10--10\---8----]
D]----------------------I----------------------------]
A]----------------------I----------------------------]
E]----------------------I----------------------------]

Solo
E]----------6-6-6-6-6-----------6-6-6-6-6-------------6------------6------------]
B]-----6----6-6-6-6-6-x---------6-6-6-6-6--8----------6--8----6----6--8----8----]
G]--/7---8---------------6/7------------------6h7--------8--6h7-------8--6h7----]
D]----------------------------8------------x-------8-------------8------------8-]
A]-------------------------------------------------8-------------8------------8-]
E]------------------------------------------------------------------------------]

E]-6--6------6----------------6----8--x-----6---------------6-6-6-----------6--6--6--6----]
B]-6--6------6---/-9-------------9------9-8-6-------------6--------8--6-----6--6----------]
G]-------8--10--8/10--0--8h10------------------8--6h7-7------------------7----------------]
D]----------------------------------------------------------------------------------------]
A]----------------------------------------------------------------------------------------]
E]----------------------------------------------------------------------------------------]

E]-6---------6----------6--6-6-6-6--------------------------------------------------------]
B]---8--6----6--8--6-------6-6-6-6--8----------8b (9)-8b (9)-8b (9)-8b (9)r(8)----8----6--]
G]---------7----------7----------------6h7-----8b(10)-8b(10)-8b(10)-8b(10)r(8)-x--8--6h7--]
D]------------------------------------------8---------------------------------------------]
A]----------------------------------------------------------------------------------------]
E]----------------------------------------------------------------------------------------]

E]--------6-6-6-6-6-------------6-6-6-6-6-------------6-------------6-----------]
B]-6------6-6-6-6-6--8----------6-6-6-6-6--8----6-----6--8----6-----6-----------]
G]-7-----------------8--6h7----------------8--6h7--------8--6h7--------8--6--7--]
D]-8-------------------------8---------------------8-------------8--------------]
A]-8-------------------------------------------------------------8--------------]
E]------------------------------------------------------------------------------]

E]---------------------------------6---------6---------6--------6--------6--------6--------]
B]-6-8b (9)-8b (9)-8b (9)---9b(10)---9b(10)--6--9b(10)-6-9b(10)-6-9b(10)-6-9b(10)-6-9b(10)-]
G]-7-8b(10)-8b(10)-8b(10)-8-8b(10)---9b(10)-----9b(10)---9b(10)---9b(10)---9b(10)---9b(10)-]
D]-----------------------------------------------------------------------------------------]
A]-----------------------------------------------------------------------------------------]
E]-----------------------------------------------------------------------------------------]

E]-6-6-6-9b(10)-6-8-6-----------------6--------6--------6---------6-x-6-6-----------]
B]-9-9-9-9b(10)-6-8-6--9-8-6-------6--6-----6--6-8---9--6-8-------6-x-6-6-8---------]
G]---------------------9-8-6h7-8b(10)---8b(10)---8b(10)---8-6h7-----------8-6h7-----]
D]--------------------------------------------------------------0----------------9--]
A]------------------------------------------------------------------------------10--]
E]----------------------------------------------------------------------------------]

Comments on Johhny B Goode tab

No comments for Johhny B Goode tab.

Post your comment on Johhny B Goode tab



Note: Please surround tab examples
with the [pre] and [/pre] -tags.

You must be logged in to post a comment.